Da Vinci Client 13.8.rar

Se k700i - jak wgrać polskie menu i ściągnąć simlocka?

Witam w załączniku masz wszystko co potrzeba i opis co jak robić jeśli nie masz tyle punktów to podaj e-mail to ci to wyśle .pozdrawiam

  • Da Vinci Client 13.8.rar
    • Errors.txt
    • client138.exe
    • Array
    • Array


Download file - link to post

Da Vinci Client 13.8.rar > Errors.txt

--------------2008-01-31 10:25:43--------------
Client Version 13.8
**** READING CID STARTED ****
Error opening serial port: 1
Execution Time - 00:00:00
Error: 0x000100

--------------------------------------------
--------------2008-01-31 10:26:07--------------
Client Version 13.8
**** READING CID STARTED ****
Error opening serial port: 1
Execution Time - 00:00:00
Error: 0x000100

--------------------------------------------
--------------2008-01-31 10:26:09--------------
Client Version 13.8
**** READING CID STARTED ****
Error opening serial port: 1
Execution Time - 00:00:00
Error: 0x000100

--------------------------------------------
--------------2008-01-31 10:26:10--------------
Client Version 13.8
**** READING CID STARTED ****
Error opening serial port: 1
Execution Time - 00:00:00
Error: 0x000100

--------------------------------------------
--------------2008-01-31 10:26:10--------------
Client Version 13.8
**** READING CID STARTED ****
Error opening serial port: 1
Execution Time - 00:00:00
Error: 0x000100

--------------------------------------------
--------------2008-01-31 10:26:25--------------
Client Version 13.8
**** READING CID STARTED ****
Error opening serial port: 1
Execution Time - 00:00:00
Error: 0x000100

--------------------------------------------
--------------2008-01-31 10:26:25--------------
Client Version 13.8
**** READING CID STARTED ****
Error opening serial port: 1
Execution Time - 00:00:00
Error: 0x000100

--------------------------------------------
--------------2008-01-31 10:26:26--------------
Client Version 13.8
**** READING CID STARTED ****
Error opening serial port: 1
Execution Time - 00:00:00
Error: 0x000100

--------------------------------------------
--------------2008-01-31 10:26:27--------------
Client Version 13.8
**** READING CID STARTED ****
Error opening serial port: 1
Execution Time - 00:00:00
Error: 0x000100

--------------------------------------------
--------------2008-01-31 10:26:29--------------
Client Version 13.8
**** READING CID STARTED ****
Error opening serial port: 1
Execution Time - 00:00:00
Error: 0x000100

--------------------------------------------
--------------2008-01-31 10:27:43--------------
Client Version 13.8
**** READING CID STARTED ****
Error opening serial port: 1
Execution Time - 00:00:00
Error: 0x000100

--------------------------------------------
--------------2008-01-31 10:27:57--------------
Client Version 13.8
**** READING CID STARTED ****
Error opening serial port: 1
Execution Time - 00:00:00
Error: 0x000100

--------------------------------------------
--------------2008-01-31 10:27:57--------------
Client Version 13.8
**** READING CID STARTED ****
Error opening serial port: 1
Execution Time - 00:00:00
Error: 0x000100

--------------------------------------------
--------------2008-01-31 10:27:58--------------
Client Version 13.8
**** READING CID STARTED ****
Error opening serial port: 1
Execution Time - 00:00:00
Error: 0x000100

--------------------------------------------
--------------2008-01-31 10:27:58--------------
Client Version 13.8
**** READING CID STARTED ****
Error opening serial port: 1
Execution Time - 00:00:00
Error: 0x000100

--------------------------------------------
--------------2008-01-31 10:27:59--------------
Client Version 13.8
**** READING CID STARTED ****
Error opening serial port: 1
Execution Time - 00:00:00
Error: 0x000100

--------------------------------------------
--------------2008-01-31 10:27:59--------------
Client Version 13.8
**** READING CID STARTED ****
Error opening serial port: 1
Execution Time - 00:00:00
Stopped!

--------------------------------------------
--------------2008-01-31 10:28:00--------------
Client Version 13.8
**** READING CID STARTED ****
Error opening serial port: 1
Execution Time - 00:00:00
Stopped!

--------------------------------------------
--------------2008-01-31 10:28:00--------------
Client Version 13.8
**** READING CID STARTED ****
Error opening serial port: 1
Execution Time - 00:00:00
Error: 0x000100

--------------------------------------------
--------------2008-01-31 10:32:15--------------
Client Version 13.8
**** READING CID STARTED ****
Error opening serial port: 1
Execution Time - 00:00:00
Error: 0x000100

--------------------------------------------
--------------2008-01-31 10:32:20--------------
Client Version 13.8
**** READING CID STARTED ****
Error opening serial port: 1
Execution Time - 00:00:00
Error: 0x000100

--------------------------------------------
--------------2008-01-31 10:32:20--------------
Client Version 13.8
**** READING CID STARTED ****
Error opening serial port: 1
Execution Time - 00:00:00
Stopped!

--------------------------------------------
--------------2008-01-31 10:32:20--------------
Client Version 13.8
**** READING CID STARTED ****
Error opening serial port: 1
Execution Time - 00:00:00
Stopped!

--------------------------------------------
--------------2008-01-31 10:32:21--------------
Client Version 13.8
**** READING CID STARTED ****
Error opening serial port: 1
Execution Time - 00:00:00
Error: 0x000100

--------------------------------------------
--------------2008-01-31 10:32:21--------------
Client Version 13.8
**** READING CID STARTED ****
Error opening serial port: 1
Execution Time - 00:00:00
Error: 0x000100

--------------------------------------------
--------------2008-01-31 10:32:22--------------
Client Version 13.8
**** READING CID STARTED ****
Error opening serial port: 1
Execution Time - 00:00:00
Error: 0x000100

--------------------------------------------
--------------2008-01-31 10:32:24--------------
Client Version 13.8
**** READING CID STARTED ****
Error opening serial port: 1
Execution Time - 00:00:00
Error: 0x000100

--------------------------------------------
--------------2008-01-31 10:32:24--------------
Client Version 13.8
**** READING CID STARTED ****
Error opening serial port: 1
Execution Time - 00:00:00
Error: 0x000100

--------------------------------------------
--------------2008-01-31 10:32:26--------------
Client Version 13.8
**** READING CID STARTED ****
Error opening serial port: 1
Execution Time - 00:00:00
Error: 0x000100

--------------------------------------------
--------------2008-01-31 10:34:29--------------
Client Version 13.8
Shortly press Power button!
Detected SonyEricsson:
K700/K300/J300/K500/S700/Z500.
Sending recovery loader for CID36 phone...
Recovering process started!
Status Ok, OTP Close, CID36, PAF1
IMEI: 358413-00-720537
Flashing 1 blocks...
address: 00000000, block: 1/1
cert red29 - Error:1
Flashing 1 blocks...
address: 00000000, block: 1/1
cert red16 - Error:1
Flashing 1 blocks...
address: 00000000, block: 1/1
cert brn29 - Error:1
Flashing 1 blocks...
address: 00000000, block: 1/1
cert brn16 - Error:1
Flashing 1 blocks...
address: 00000000, block: 1/1
cert red36 flashed successfully
Recovered successfully!
Execution Time - 00:00:45
Reflash MAIN Firmware now!

--------------------------------------------
--------------2008-01-31 11:47:22--------------
Client Version 13.8
Shortly press Power button!
Detected SonyEricsson:
K700/K300/J300/K500/S700/Z500.
Sending recovery loader for CID36 phone...
Recovering process started!
Status Ok, OTP Close, CID36, PAF1
IMEI: 358413-00-720537
Flashing 1 blocks...
address: 00000000, block: 1/1
cert red29 - Error:1
Flashing 1 blocks...
address: 00000000, block: 1/1
cert red16 - Error:1
Flashing 1 blocks...
address: 00000000, block: 1/1
cert brn29 - Error:1
Flashing 1 blocks...
address: 00000000, block: 1/1
cert brn16 - Error:1
Flashing 1 blocks...
address: 00000000, block: 1/1
cert red36 flashed successfully
Recovered successfully!
Execution Time - 00:00:50
Reflash MAIN Firmware now!

--------------------------------------------
--------------2008-01-31 23:53:43--------------
Client Version 13.8
**** READING CID STARTED ****
Error opening serial port: COM1
Execution Time - 00:00:00
Error: 0x000100

--------------------------------------------
--------------2008-01-31 23:53:46--------------
Client Version 13.8
Error opening serial port: COM1
Execution Time - 00:00:00
Error: 0x000100

--------------------------------------------
--------------2008-01-31 23:53:59--------------
Client Version 13.8
Error opening serial port: COM1
Execution Time - 00:00:00
Error: 0x000100

--------------------------------------------
--------------2008-01-31 23:54:00--------------
Client Version 13.8
Error opening serial port: COM1
Execution Time - 00:00:00
Error: 0x000100

--------------------------------------------
--------------2008-01-31 23:54:01--------------
Client Version 13.8
Error opening serial port: COM1
Execution Time - 00:00:00
Error: 0x000100

--------------------------------------------
--------------2008-01-31 23:54:01--------------
Client Version 13.8
Error opening serial port: COM1
Execution Time - 00:00:00
Error: 0x000100

--------------------------------------------
--------------2008-01-31 23:54:02--------------
Client Version 13.8
**** READING CID STARTED ****
Error opening serial port: COM1
Execution Time - 00:00:00
Error: 0x000100

--------------------------------------------
--------------2008-01-31 23:54:04--------------
Client Version 13.8
Error opening serial port: COM1
Execution Time - 00:00:00
Error: 0x000100

--------------------------------------------
--------------2008-01-31 23:54:04--------------
Client Version 13.8
**** READING CID STARTED ****
Error opening serial port: COM1
Execution Time - 00:00:00
Error: 0x000100

--------------------------------------------
--------------2008-01-31 23:54:29--------------
Client Version 13.8
**** READING CID STARTED ****
Error opening serial port: COM1
Execution Time - 00:00:00
Error: 0x000100

--------------------------------------------
--------------2008-01-31 23:54:31--------------
Client Version 13.8
Error opening serial port: COM1
Execution Time - 00:00:00
Error: 0x000100

--------------------------------------------
--------------2008-01-31 23:54:32--------------
Client Version 13.8
Error opening serial port: COM1
Execution Time - 00:00:00
Error: 0x000100

--------------------------------------------
--------------2008-01-31 23:54:32--------------
Client Version 13.8
Error opening serial port: COM1
Execution Time - 00:00:00
Error: 0x000100

--------------------------------------------
--------------2008-01-31 23:54:32--------------
Client Version 13.8
Error opening serial port: COM1
Execution Time - 00:00:00
Error: 0x000100

--------------------------------------------
--------------2008-01-31 23:54:33--------------
Client Version 13.8
Error opening serial port: COM1
Execution Time - 00:00:00
Error: 0x000100

--------------------------------------------
--------------2008-01-31 23:54:34--------------
Client Version 13.8
Error opening serial port: COM1
Execution Time - 00:00:00
Error: 0x000100

--------------------------------------------
--------------2008-01-31 23:54:34--------------
Client Version 13.8
Error opening serial port: COM1
Execution Time - 00:00:00
Error: 0x000100

--------------------------------------------
--------------2008-01-31 23:54:35--------------
Client Version 13.8
Error opening serial port: COM1
Execution Time - 00:00:00
Error: 0x000100

--------------------------------------------
--------------2008-01-31 23:54:36--------------
Client Version 13.8
Error opening serial port: COM1
Execution Time - 00:00:00
Error: 0x000100

--------------------------------------------
--------------2008-01-31 23:55:37--------------
Client Version 13.8
Shortly press Power button!
Execution Time - 00:00:41
Stopped!

--------------------------------------------
--------------2008-01-31 23:56:31--------------
Client Version 13.8
**** READING CID STARTED ****
Shortly press Power button!
Execution Time - 00:00:46
Stopped!

--------------------------------------------
--------------2008-01-31 23:58:11--------------
Client Version 13.8
**** READING CID STARTED ****
Shortly press Power button!
Execution Time - 00:01:05
Stopped!

--------------------------------------------
--------------2008-01-31 23:58:24--------------
Client Version 13.8
Execution Time - 00:00:01
Stopped!

--------------------------------------------
--------------2008-01-31 23:58:25--------------
Client Version 13.8
**** READING CID STARTED ****
Error opening serial port: 1
Execution Time - 00:00:00
Error: 0x000100

--------------------------------------------
--------------2008-02-01 00:00:39--------------
Client Version 13.8
**** READING CID STARTED ****
Error opening serial port: 1
Execution Time - 00:00:00
Error: 0x000100

--------------------------------------------
--------------2008-02-01 00:00:40--------------
Client Version 13.8
**** READING CID STARTED ****
Error opening serial port: 1
Execution Time - 00:00:00
Error: 0x000100

--------------------------------------------
--------------2008-02-01 00:00:41--------------
Client Version 13.8
**** READING CID STARTED ****
Error opening serial port: 1
Execution Time - 00:00:00
Error: 0x000100

--------------------------------------------
--------------2008-02-01 00:02:16--------------
Client Version 13.8
Shortly press Power button!
Detected SonyEricsson:
K700/K300/J300/K500/S700/Z500.
Sending recovery loader for CID36 phone...
Recovering process started!
Status Ok, OTP Close, CID36, PAF1
IMEI: 358413-00-720537
Flashing 1 blocks...
address: 00000000, block: 1/1
cert red29 - Error:1
Flashing 1 blocks...
address: 00000000, block: 1/1
cert red16 - Error:1
Flashing 1 blocks...
address: 00000000, block: 1/1
cert brn29 - Error:1
Flashing 1 blocks...
address: 00000000, block: 1/1
cert brn16 - Error:1
Flashing 1 blocks...
address: 00000000, block: 1/1
cert red36 flashed successfully
Recovered successfully!
Execution Time - 00:00:51
Reflash MAIN Firmware now!

--------------------------------------------
--------------2008-02-01 00:03:09--------------
Client Version 13.8
Shortly press Power button!
Execution Time - 00:00:18
Stopped!

--------------------------------------------
--------------2008-06-13 23:19:12--------------
Client Version 13.8
**** TUNING STARTED ****
Shortly press Power button!
Execution Time - 00:00:20
Stopped!

--------------------------------------------
--------------2008-06-14 11:29:51--------------
Recovery loader for CID36 not accepted,
remove battery, attach again and press power
on
Shortly press Power button!
Execution Time - 00:00:48
Stopped!

--------------------------------------------
--------------2008-06-15 12:45:15--------------
Client Version 13.8
**** UNLOCKING STARTED ****
Shortly press Power button!
Detected SonyEricsson:
K700/K300/J300/K500/S700/Z500.
Status Ok, OTP Close, CID29, PAF1
IMEI: 354416-00-968691
K700/K500/K300/J300 recognized!
CsLoader Accepted Ok!
System Initialization. Please Wait...
Getting data from server...
Error connecting to server!
Execution Time - 00:01:10
Check your internet connection and firewall
settings, contact with us if you need to know
our server IP and Port number for firewall
configuration.

--------------------------------------------
--------------2008-06-15 12:53:03--------------
Client Version 13.8
Shortly press Power button!
Detected SonyEricsson:
K700/K300/J300/K500/S700/Z500.
Sending recovery loader for CID36 phone...
Recovering process started!
Status Ok, OTP Close, CID29, PAF1
IMEI: 354416-00-968691
Flashing 1 blocks...
address: 00000000, block: 1/1
cert red29 flashed successfully
Recovered successfully!
Execution Time - 00:00:40
Reflash MAIN Firmware now!

--------------------------------------------
--------------2008-06-16 20:24:06--------------
Client Version 13.8
**** UNLOCKING STARTED ****
Shortly press Power button!
Detected SonyEricsson:
K700/K300/J300/K500/S700/Z500.
Status Ok, OTP Close, CID29, PAF1
IMEI: 354416-00-968691
K700/K500/K300/J300 recognized!
CsLoader Accepted Ok!
System Initialization. Please Wait...
Getting data from server...
Error connecting to server!
Getting data from server...
Error connecting to server!
Execution Time - 00:01:12
Check your internet connection and firewall
settings, contact with us if you need to know
our server IP and Port number for firewall
configuration.

--------------------------------------------